★ TouchArcade needs your help. Click here to support us on Patreon.

Carcassonne Background Music - Sheet music or guitar tab anyone?

07-05-2011, 08:14 PM
#1
Joined: Jul 2009
Posts: 240
Carcassonne Background Music - Sheet music or guitar tab anyone?

I'm sure many people here are familiar with Carcassonne on the iPad and iPhone. One of the best parts is the soothing guitar music in the background.

While I played the guitar years ago, and still have a couple classical guitars, it's been a long time since I've played or done anything music related. So aside from a few of the notes and chords, I can't really transcribe the song at all.

Anyone know if there is sheet music or a guitar tab for this song out there anywhere? Or, is there anyone out there musically inclined who would be interested in transcribing it, or at least throwing the chord progression down? About all I can figure out is the baseline.
09-06-2013, 10:48 PM
#2
Joined: Sep 2013
Posts: 1
Capo 2, D chord

----------|-------2-----------2---------2---------------|--
----------|---3----------3---------3---------3-----3---|--
----------|-----2-----------2---------2---------2------|---
-----0h2-|-0-------------------------------------------|--repeat-
-0h2-----|----------------------------------------------|--
----------|----------------------------------------------|--

--------------|---------0-----------0---------0---------------|--
--------------|-----3----------3---------3---------3-----3---|--
--------------|-------0-----------0---------0---------0------|---
-2p0---------|---------------------------------------------|--repeat-
-------2p0---|--2--------------------------------------------|--
--------------|----------------------------------------------|--

There's also a little run up in the 5th string 0-2-4, then to the 4th string 0-2-4.

I don't know the rest.

I can't believe I just typed that out on my phone.